ISO-10303-21;
HEADER;
/* Generated by software containing ST-Developer
 * from STEP Tools, Inc. (www.steptools.com) 
 */

FILE_DESCRIPTION(
/* description */ ('',
'CAx-IF Rec.Pracs.---Representation and Presentation of Product Manufa
cturing Information (PMI)---4.0---2014-10-13'),
/* implementation_level */ '2;1');

FILE_NAME(
/* name */ 
'D:\\\X2\041A0430043F043B04350439\X0\ \X2\041C042E\X0\\\2. \X2\041104380431043B0438043E04420435043A0430\X0\ 
STP-\X2\043C043E04340435043B04350439\X0\\\\X2\041F0440043E043A043B04300434043A0438\X0\ 
\X2\041F0424\X0\\\\X2\0417042D04220410042004230421\X0\ \X2\041F0440043E043A043B04300434043A0430\X0\ 
\X2\041F0424\X0\ 20,4.stp',
/* time_stamp */ '2022-06-16T10:35:39+07:00',
/* author */ ('zeta-09'),
/* organization */ (''),
/* preprocessor_version */ 'ST-DEVELOPER v18.1',
/* originating_system */ 'Autodesk Inventor 2021',
/* authorisation */ '');

FILE_SCHEMA (('AP242_MANAGED_MODEL_BASED_3D_ENGINEERING_MIM_LF { 1 0 10303 442 1 1 4 }'));
ENDSEC;

DATA;
#10=MECHANICAL_DESIGN_GEOMETRIC_PRESENTATION_REPRESENTATION('',(#17,#18,
#19,#20),#148);
#11=GEOMETRICALLY_BOUNDED_WIREFRAME_SHAPE_REPRESENTATION('',(#12),#147);
#12=GEOMETRIC_CURVE_SET('\X2\042D0441043A04380437\X0\1',(#44,#45));
#13=SHAPE_REPRESENTATION_RELATIONSHIP('SRR','None',#155,#15);
#14=SHAPE_REPRESENTATION_RELATIONSHIP('SRR','None',#155,#11);
#15=ADVANCED_BREP_SHAPE_REPRESENTATION('',(#21),#147);
#16=INVISIBILITY((#18,#19,#20));
#17=STYLED_ITEM('',(#164),#21);
#18=STYLED_ITEM('',(#165),#44);
#19=STYLED_ITEM('',(#165),#45);
#20=STYLED_ITEM('',(#166),#12);
#21=MANIFOLD_SOLID_BREP('\X2\04220432043504400434043E0435\X0\ \X2\04420435043B043E\X0\1',
#74);
#22=FACE_BOUND('',#33,.T.);
#23=FACE_BOUND('',#35,.T.);
#24=PLANE('',#100);
#25=PLANE('',#101);
#26=FACE_OUTER_BOUND('',#30,.T.);
#27=FACE_OUTER_BOUND('',#31,.T.);
#28=FACE_OUTER_BOUND('',#32,.T.);
#29=FACE_OUTER_BOUND('',#34,.T.);
#30=EDGE_LOOP('',(#56,#57,#58,#59));
#31=EDGE_LOOP('',(#60,#61,#62,#63));
#32=EDGE_LOOP('',(#64));
#33=EDGE_LOOP('',(#65));
#34=EDGE_LOOP('',(#66));
#35=EDGE_LOOP('',(#67));
#36=LINE('',#133,#38);
#37=LINE('',#139,#39);
#38=VECTOR('',#110,10.2);
#39=VECTOR('',#117,13.7);
#40=CIRCLE('',#95,10.2);
#41=CIRCLE('',#96,10.2);
#42=CIRCLE('',#98,13.7);
#43=CIRCLE('',#99,13.7);
#44=CIRCLE('',#102,13.7);
#45=CIRCLE('',#103,10.2);
#46=VERTEX_POINT('',#130);
#47=VERTEX_POINT('',#132);
#48=VERTEX_POINT('',#136);
#49=VERTEX_POINT('',#138);
#50=EDGE_CURVE('',#46,#46,#40,.T.);
#51=EDGE_CURVE('',#46,#47,#36,.T.);
#52=EDGE_CURVE('',#47,#47,#41,.T.);
#53=EDGE_CURVE('',#48,#48,#42,.T.);
#54=EDGE_CURVE('',#48,#49,#37,.T.);
#55=EDGE_CURVE('',#49,#49,#43,.T.);
#56=ORIENTED_EDGE('',*,*,#50,.F.);
#57=ORIENTED_EDGE('',*,*,#51,.T.);
#58=ORIENTED_EDGE('',*,*,#52,.F.);
#59=ORIENTED_EDGE('',*,*,#51,.F.);
#60=ORIENTED_EDGE('',*,*,#53,.T.);
#61=ORIENTED_EDGE('',*,*,#54,.T.);
#62=ORIENTED_EDGE('',*,*,#55,.F.);
#63=ORIENTED_EDGE('',*,*,#54,.F.);
#64=ORIENTED_EDGE('',*,*,#53,.F.);
#65=ORIENTED_EDGE('',*,*,#52,.T.);
#66=ORIENTED_EDGE('',*,*,#55,.T.);
#67=ORIENTED_EDGE('',*,*,#50,.T.);
#68=CYLINDRICAL_SURFACE('',#94,10.2);
#69=CYLINDRICAL_SURFACE('',#97,13.7);
#70=ADVANCED_FACE('',(#26),#68,.F.);
#71=ADVANCED_FACE('',(#27),#69,.T.);
#72=ADVANCED_FACE('',(#28,#22),#24,.F.);
#73=ADVANCED_FACE('',(#29,#23),#25,.T.);
#74=CLOSED_SHELL('',(#70,#71,#72,#73));
#75=DERIVED_UNIT_ELEMENT(#77,1.);
#76=DERIVED_UNIT_ELEMENT(#150,3.);
#77=(
MASS_UNIT()
NAMED_UNIT(*)
SI_UNIT($,.GRAM.)
);
#78=DERIVED_UNIT((#75,#76));
#79=MEASURE_REPRESENTATION_ITEM('density measure',
POSITIVE_RATIO_MEASURE(1.637),#78);
#80=PROPERTY_DEFINITION_REPRESENTATION(#85,#82);
#81=PROPERTY_DEFINITION_REPRESENTATION(#86,#83);
#82=REPRESENTATION('material name',(#84),#147);
#83=REPRESENTATION('density',(#79),#147);
#84=DESCRIPTIVE_REPRESENTATION_ITEM('\X2\041F043B0430044104420438043A\X0\ 
\X2\041F04240421\X0\','\X2\041F043B0430044104420438043A\X0\ \X2\041F04240421\X0\');
#85=PROPERTY_DEFINITION('material property','material name',#157);
#86=PROPERTY_DEFINITION('material property','density of part',#157);
#87=DATE_TIME_ROLE('creation_date');
#88=APPLIED_DATE_AND_TIME_ASSIGNMENT(#89,#87,(#157));
#89=DATE_AND_TIME(#90,#91);
#90=CALENDAR_DATE(2011,3,6);
#91=LOCAL_TIME(0,0,0.,#92);
#92=COORDINATED_UNIVERSAL_TIME_OFFSET(0,0,.BEHIND.);
#93=AXIS2_PLACEMENT_3D('placement',#128,#104,#105);
#94=AXIS2_PLACEMENT_3D('',#129,#106,#107);
#95=AXIS2_PLACEMENT_3D('',#131,#108,#109);
#96=AXIS2_PLACEMENT_3D('',#134,#111,#112);
#97=AXIS2_PLACEMENT_3D('',#135,#113,#114);
#98=AXIS2_PLACEMENT_3D('',#137,#115,#116);
#99=AXIS2_PLACEMENT_3D('',#140,#118,#119);
#100=AXIS2_PLACEMENT_3D('',#141,#120,#121);
#101=AXIS2_PLACEMENT_3D('',#142,#122,#123);
#102=AXIS2_PLACEMENT_3D('',#143,#124,#125);
#103=AXIS2_PLACEMENT_3D('',#144,#126,#127);
#104=DIRECTION('axis',(0.,0.,1.));
#105=DIRECTION('refdir',(1.,0.,0.));
#106=DIRECTION('center_axis',(0.,0.,1.));
#107=DIRECTION('ref_axis',(-1.,0.,0.));
#108=DIRECTION('center_axis',(0.,0.,1.));
#109=DIRECTION('ref_axis',(-1.,0.,0.));
#110=DIRECTION('',(0.,0.,1.));
#111=DIRECTION('center_axis',(0.,0.,-1.));
#112=DIRECTION('ref_axis',(-1.,0.,0.));
#113=DIRECTION('center_axis',(0.,0.,1.));
#114=DIRECTION('ref_axis',(-1.,0.,0.));
#115=DIRECTION('center_axis',(0.,0.,-1.));
#116=DIRECTION('ref_axis',(-1.,0.,0.));
#117=DIRECTION('',(0.,0.,-1.));
#118=DIRECTION('center_axis',(0.,0.,-1.));
#119=DIRECTION('ref_axis',(-1.,0.,0.));
#120=DIRECTION('center_axis',(0.,0.,-1.));
#121=DIRECTION('ref_axis',(-1.,0.,0.));
#122=DIRECTION('center_axis',(0.,0.,-1.));
#123=DIRECTION('ref_axis',(-1.,0.,0.));
#124=DIRECTION('center_axis',(0.,0.,1.));
#125=DIRECTION('ref_axis',(1.,0.,0.));
#126=DIRECTION('center_axis',(0.,0.,1.));
#127=DIRECTION('ref_axis',(1.,0.,0.));
#128=CARTESIAN_POINT('',(0.,0.,0.));
#129=CARTESIAN_POINT('Origin',(0.,0.,0.));
#130=CARTESIAN_POINT('',(10.2,1.2491397351303E-15,0.));
#131=CARTESIAN_POINT('Origin',(0.,0.,0.));
#132=CARTESIAN_POINT('',(10.2,1.2491397351303E-15,1.5));
#133=CARTESIAN_POINT('',(10.2,1.2491397351303E-15,0.));
#134=CARTESIAN_POINT('Origin',(0.,0.,1.5));
#135=CARTESIAN_POINT('Origin',(0.,0.,0.));
#136=CARTESIAN_POINT('',(13.7,1.67776611483187E-15,1.5));
#137=CARTESIAN_POINT('Origin',(0.,0.,1.5));
#138=CARTESIAN_POINT('',(13.7,1.67776611483187E-15,0.));
#139=CARTESIAN_POINT('',(13.7,1.67776611483187E-15,0.));
#140=CARTESIAN_POINT('Origin',(0.,0.,0.));
#141=CARTESIAN_POINT('Origin',(0.,0.,1.5));
#142=CARTESIAN_POINT('Origin',(0.,0.,0.));
#143=CARTESIAN_POINT('Origin',(0.,0.,0.));
#144=CARTESIAN_POINT('Origin',(0.,0.,0.));
#145=UNCERTAINTY_MEASURE_WITH_UNIT(LENGTH_MEASURE(0.01),#149,
'DISTANCE_ACCURACY_VALUE',
'Maximum model space distance between geometric entities at asserted c
onnectivities');
#146=UNCERTAINTY_MEASURE_WITH_UNIT(LENGTH_MEASURE(0.01),#149,
'DISTANCE_ACCURACY_VALUE',
'Maximum model space distance between geometric entities at asserted c
onnectivities');
#147=(
GEOMETRIC_REPRESENTATION_CONTEXT(3)
GLOBAL_UNCERTAINTY_ASSIGNED_CONTEXT((#145))
GLOBAL_UNIT_ASSIGNED_CONTEXT((#149,#151,#152))
REPRESENTATION_CONTEXT('','3D')
);
#148=(
GEOMETRIC_REPRESENTATION_CONTEXT(3)
GLOBAL_UNCERTAINTY_ASSIGNED_CONTEXT((#146))
GLOBAL_UNIT_ASSIGNED_CONTEXT((#149,#151,#152))
REPRESENTATION_CONTEXT('','3D')
);
#149=(
LENGTH_UNIT()
NAMED_UNIT(*)
SI_UNIT(.MILLI.,.METRE.)
);
#150=(
LENGTH_UNIT()
NAMED_UNIT(*)
SI_UNIT(.CENTI.,.METRE.)
);
#151=(
NAMED_UNIT(*)
PLANE_ANGLE_UNIT()
SI_UNIT($,.RADIAN.)
);
#152=(
NAMED_UNIT(*)
SI_UNIT($,.STERADIAN.)
SOLID_ANGLE_UNIT()
);
#153=SHAPE_DEFINITION_REPRESENTATION(#154,#155);
#154=PRODUCT_DEFINITION_SHAPE('',$,#157);
#155=SHAPE_REPRESENTATION('',(#93),#147);
#156=PRODUCT_DEFINITION_CONTEXT('part definition',#161,'design');
#157=PRODUCT_DEFINITION('\X2\041F0440043E043A043B04300434043A0430\X0\ 
\X2\041C\X0\20','\X2\041F0440043E043A043B04300434043A0430\X0\ \X2\041F0424\X0\ 
20,4',#158,#156);
#158=PRODUCT_DEFINITION_FORMATION('',$,#163);
#159=PRODUCT_RELATED_PRODUCT_CATEGORY('\X2\041F0440043E043A043B04300434043A0430\X0\ 
\X2\041F0424\X0\ 20,4','\X2\041F0440043E043A043B04300434043A0430\X0\ \X2\041F0424\X0\ 
20,4',(#163));
#160=APPLICATION_PROTOCOL_DEFINITION('international standard',
'ap242_managed_model_based_3d_engineering',2011,#161);
#161=APPLICATION_CONTEXT('Managed model based 3d engineering');
#162=PRODUCT_CONTEXT('part definition',#161,'mechanical');
#163=PRODUCT('\X2\041F0440043E043A043B04300434043A0430\X0\ \X2\041C\X0\2
0','\X2\041F0440043E043A043B04300434043A0430\X0\ \X2\041F0424\X0\ 20,4',
$,(#162));
#164=PRESENTATION_STYLE_ASSIGNMENT((#167));
#165=PRESENTATION_STYLE_ASSIGNMENT((#168));
#166=PRESENTATION_STYLE_ASSIGNMENT((NULL_STYLE(.NULL.)));
#167=SURFACE_STYLE_USAGE(.BOTH.,#171);
#168=SURFACE_STYLE_USAGE(.BOTH.,#172);
#169=SURFACE_STYLE_RENDERING_WITH_PROPERTIES($,#179,(#170));
#170=SURFACE_STYLE_TRANSPARENT(0.);
#171=SURFACE_SIDE_STYLE('',(#173,#169));
#172=SURFACE_SIDE_STYLE('',(#174));
#173=SURFACE_STYLE_FILL_AREA(#175);
#174=SURFACE_STYLE_FILL_AREA(#176);
#175=FILL_AREA_STYLE('',(#177));
#176=FILL_AREA_STYLE('',(#178));
#177=FILL_AREA_STYLE_COLOUR('',#179);
#178=FILL_AREA_STYLE_COLOUR('',#180);
#179=COLOUR_RGB('',0.945098039215686,0.949019607843137,0.972549019607843);
#180=COLOUR_RGB('',0.,0.,0.501960784313725);
ENDSEC;
END-ISO-10303-21;
